  0
SECTION
  2
HEADER
  9
$ACADVER
  1
AC1015
  9
$ACADMAINTVER
 70
     6
  9
$DWGCODEPAGE
  3
ANSI_1254
  9
$INSBASE
 10
0.0
 20
0.0
 30
0.0
  9
$EXTMIN
 10
0.0
 20
0.0
 30
0.0
  9
$EXTMAX
 10
279.4
 20
215.9
 30
0.0
  9
$LIMMIN
 10
0.0
 20
0.0
  9
$LIMMAX
 10
279.4
 20
215.9
  9
$ORTHOMODE
 70
     0
  9
$REGENMODE
 70
     1
  9
$FILLMODE
 70
     1
  9
$QTEXTMODE
 70
     0
  9
$MIRRTEXT
 70
     1
  9
$LTSCALE
 40
1.0
  9
$ATTMODE
 70
     1
  9
$TEXTSIZE
 40
3.5
  9
$TRACEWID
 40
1.0
  9
$TEXTSTYLE
  7
Standard
  9
$CLAYER
  8
0
  9
$CELTYPE
  6
ByLayer
  9
$CECOLOR
 62
   256
  9
$CELTSCALE
 40
1.0
  9
$DISPSILH
 70
     0
  9
$DIMSCALE
 40
1.0
  9
$DIMASZ
 40
3.5
  9
$DIMEXO
 40
1.0
  9
$DIMDLI
 40
3.75
  9
$DIMRND
 40
0.0
  9
$DIMDLE
 40
0.0
  9
$DIMEXE
 40
1.0
  9
$DIMTP
 40
0.0
  9
$DIMTM
 40
0.0
  9
$DIMTXT
 40
3.5
  9
$DIMCEN
 40
2.5
  9
$DIMTSZ
 40
0.0
  9
$DIMTOL
 70
     0
  9
$DIMLIM
 70
     0
  9
$DIMTIH
 70
     1
  9
$DIMTOH
 70
     1
  9
$DIMSE1
 70
     0
  9
$DIMSE2
 70
     0
  9
$DIMTAD
 70
     1
  9
$DIMZIN
 70
     0
  9
$DIMBLK
  1

  9
$DIMASO
 70
     1
  9
$DIMSHO
 70
     1
  9
$DIMPOST
  1

  9
$DIMAPOST
  1

  9
$DIMALT
 70
     0
  9
$DIMALTD
 70
     3
  9
$DIMALTF
 40
0.0393700787
  9
$DIMLFAC
 40
1.0
  9
$DIMTOFL
 70
     1
  9
$DIMTVP
 40
0.0
  9
$DIMTIX
 70
     0
  9
$DIMSOXD
 70
     0
  9
$DIMSAH
 70
     0
  9
$DIMBLK1
  1

  9
$DIMBLK2
  1

  9
$DIMSTYLE
  2
ISO-25
  9
$DIMCLRD
 70
     0
  9
$DIMCLRE
 70
     0
  9
$DIMCLRT
 70
     0
  9
$DIMTFAC
 40
1.0
  9
$DIMGAP
 40
1.524
  9
$DIMJUST
 70
     0
  9
$DIMSD1
 70
     0
  9
$DIMSD2
 70
     0
  9
$DIMTOLJ
 70
     0
  9
$DIMTZIN
 70
     0
  9
$DIMALTZ
 70
     0
  9
$DIMALTTZ
 70
     0
  9
$DIMUPT
 70
     0
  9
$DIMDEC
 70
     2
  9
$DIMTDEC
 70
     2
  9
$DIMALTU
 70
     2
  9
$DIMALTTD
 70
     3
  9
$DIMTXSTY
  7
Standard
  9
$DIMAUNIT
 70
     0
  9
$DIMADEC
 70
     2
  9
$DIMALTRND
 40
0.0
  9
$DIMAZIN
 70
     0
  9
$DIMDSEP
 70
    44
  9
$DIMATFIT
 70
     3
  9
$DIMFRAC
 70
     0
  9
$DIMLDRBLK
  1

  9
$DIMLUNIT
 70
     2
  9
$DIMLWD
 70
    -2
  9
$DIMLWE
 70
    -2
  9
$DIMTMOVE
 70
     0
  9
$LUNITS
 70
     2
  9
$LUPREC
 70
     2
  9
$SKETCHINC
 40
1.0
  9
$FILLETRAD
 40
10.0
  9
$AUNITS
 70
     0
  9
$AUPREC
 70
     2
  9
$MENU
  1
.
  9
$ELEVATION
 40
0.0
  9
$PELEVATION
 40
0.0
  9
$THICKNESS
 40
0.0
  9
$LIMCHECK
 70
     0
  9
$CHAMFERA
 40
0.0
  9
$CHAMFERB
 40
0.0
  9
$CHAMFERC
 40
0.0
  9
$CHAMFERD
 40
0.0
  9
$SKPOLY
 70
     0
  9
$TDCREATE
 40
2458985.699331655
  9
$TDUCREATE
 40
2458985.574331655
  9
$TDUPDATE
 40
2458985.69933191
  9
$TDUUPDATE
 40
2458985.57433191
  9
$TDINDWG
 40
0.0000000116
  9
$TDUSRTIMER
 40
0.0000000116
  9
$USRTIMER
 70
     1
  9
$ANGBASE
 50
0.0
  9
$ANGDIR
 70
     0
  9
$PDMODE
 70
     0
  9
$PDSIZE
 40
-1.0
  9
$PLINEWID
 40
0.0
  9
$SPLFRAME
 70
     0
  9
$SPLINETYPE
 70
     6
  9
$SPLINESEGS
 70
     8
  9
$HANDSEED
  5
F0
  9
$SURFTAB1
 70
     6
  9
$SURFTAB2
 70
     6
  9
$SURFTYPE
 70
     6
  9
$SURFU
 70
     6
  9
$SURFV
 70
     6
  9
$UCSBASE
  2

  9
$UCSNAME
  2

  9
$UCSORG
 10
0.0
 20
0.0
 30
0.0
  9
$UCSXDIR
 10
1.0
 20
0.0
 30
0.0
  9
$UCSYDIR
 10
0.0
 20
1.0
 30
0.0
  9
$UCSORTHOREF
  2

  9
$UCSORTHOVIEW
 70
     0
  9
$UCSORGTOP
 10
0.0
 20
0.0
 30
0.0
  9
$UCSORGBOTTOM
 10
0.0
 20
0.0
 30
0.0
  9
$UCSORGLEFT
 10
0.0
 20
0.0
 30
0.0
  9
$UCSORGRIGHT
 10
0.0
 20
0.0
 30
0.0
  9
$UCSORGFRONT
 10
0.0
 20
0.0
 30
0.0
  9
$UCSORGBACK
 10
0.0
 20
0.0
 30
0.0
  9
$PUCSBASE
  2

  9
$PUCSNAME
  2

  9
$PUCSORG
 10
0.0
 20
0.0
 30
0.0
  9
$PUCSXDIR
 10
1.0
 20
0.0
 30
0.0
  9
$PUCSYDIR
 10
0.0
 20
1.0
 30
0.0
  9
$PUCSORTHOREF
  2

  9
$PUCSORTHOVIEW
 70
     0
  9
$PUCSORGTOP
 10
0.0
 20
0.0
 30
0.0
  9
$PUCSORGBOTTOM
 10
0.0
 20
0.0
 30
0.0
  9
$PUCSORGLEFT
 10
0.0
 20
0.0
 30
0.0
  9
$PUCSORGRIGHT
 10
0.0
 20
0.0
 30
0.0
  9
$PUCSORGFRONT
 10
0.0
 20
0.0
 30
0.0
  9
$PUCSORGBACK
 10
0.0
 20
0.0
 30
0.0
  9
$USERI1
 70
     0
  9
$USERI2
 70
     0
  9
$USERI3
 70
     0
  9
$USERI4
 70
     0
  9
$USERI5
 70
     0
  9
$USERR1
 40
0.0
  9
$USERR2
 40
0.0
  9
$USERR3
 40
0.0
  9
$USERR4
 40
0.0
  9
$USERR5
 40
0.0
  9
$WORLDVIEW
 70
     1
  9
$SHADEDGE
 70
     3
  9
$SHADEDIF
 70
    70
  9
$TILEMODE
 70
     1
  9
$MAXACTVP
 70
    64
  9
$PINSBASE
 10
0.0
 20
0.0
 30
0.0
  9
$PLIMCHECK
 70
     0
  9
$PEXTMIN
 10
1.0000000000E+20
 20
1.0000000000E+20
 30
1.0000000000E+20
  9
$PEXTMAX
 10
-1.0000000000E+20
 20
-1.0000000000E+20
 30
-1.0000000000E+20
  9
$PLIMMIN
 10
0.0
 20
0.0
  9
$PLIMMAX
 10
420.0
 20
297.0
  9
$UNITMODE
 70
     0
  9
$VISRETAIN
 70
     1
  9
$PLINEGEN
 70
     0
  9
$PSLTSCALE
 70
     1
  9
$TREEDEPTH
 70
  3020
  9
$CMLSTYLE
  2
Standard
  9
$CMLJUST
 70
     0
  9
$CMLSCALE
 40
20.0
  9
$PROXYGRAPHICS
 70
     1
  9
$MEASUREMENT
 70
     1
  9
$CELWEIGHT
370
    -1
  9
$ENDCAPS
280
     0
  9
$JOINSTYLE
280
     0
  9
$LWDISPLAY
290
     1
  9
$INSUNITS
 70
     4
  9
$HYPERLINKBASE
  1

  9
$STYLESHEET
  1

  9
$XEDIT
290
     1
  9
$CEPSNTYPE
380
     0
  9
$PSTYLEMODE
290
     1
  9
$FINGERPRINTGUID
  2
{763ea782-050d-4e49-86b2-ba8c3d047c3e}
  9
$VERSIONGUID
  2
{FAEB1C32-E019-11D5-929B-00C0DF256EC4}
  9
$EXTNAMES
290
     1
  9
$PSVPSCALE
 40
0.0
  9
$OLESTARTUP
290
     0
  0
ENDSEC
  0
SECTION
  2
CLASSES
  0
CLASS
  1
ACDBDICTIONARYWDFLT
  2
AcDbDictionaryWithDefault
  3
ObjectDBX Classes
 90
        0
280
     0
281
     0
  0
CLASS
  1
VISUALSTYLE
  2
AcDbVisualStyle
  3
ObjectDBX Classes
 90
     4095
280
     0
281
     0
  0
CLASS
  1
MATERIAL
  2
AcDbMaterial
  3
ObjectDBX Classes
 90
     1153
280
     0
281
     0
  0
CLASS
  1
SCALE
  2
AcDbScale
  3
ObjectDBX Classes
 90
     1153
280
     0
281
     0
  0
CLASS
  1
TABLESTYLE
  2
AcDbTableStyle
  3
ObjectDBX Classes
 90
     4095
280
     0
281
     0
  0
CLASS
  1
MLEADERSTYLE
  2
AcDbMLeaderStyle
  3
ACDB_MLEADERSTYLE_CLASS
 90
     4095
280
     0
281
     0
  0
CLASS
  1
SUN
  2
AcDbSun
  3
SCENEOE
 90
     1153
280
     0
281
     0
  0
CLASS
  1
ACDBPLACEHOLDER
  2
AcDbPlaceHolder
  3
ObjectDBX Classes
 90
        0
280
     0
281
     0
  0
CLASS
  1
LAYOUT
  2
AcDbLayout
  3
ObjectDBX Classes
 90
        0
280
     0
281
     0
  0
ENDSEC
  0
SECTION
  2
TABLES
  0
TABLE
  2
VPORT
  5
8
330
0
100
AcDbSymbolTable
 70
     1
  0
VPORT
  5
29
330
8
100
AcDbSymbolTableRecord
100
AcDbViewportTableRecord
  2
*Active
 70
     0
 10
0.0
 20
0.0
 11
1.0
 21
1.0
 12
139.7
 22
107.95
 13
0.0
 23
0.0
 14
10.0
 24
10.0
 15
10.0
 25
10.0
 16
0.0
 26
0.0
 36
1.0
 17
0.0
 27
0.0
 37
0.0
 40
215.9
 41
1.2941176471
 42
50.0
 43
0.0
 44
0.0
 50
0.0
 51
0.0
 71
     0
 72
  2000
 73
     1
 74
     3
 75
     0
 76
     0
 77
     0
 78
     0
281
     0
 65
     1
110
0.0
120
0.0
130
0.0
111
1.0
121
0.0
131
0.0
112
0.0
122
1.0
132
0.0
 79
     0
146
0.0
  0
ENDTAB
  0
TABLE
  2
LTYPE
  5
5
330
0
100
AcDbSymbolTable
 70
     6
  0
LTYPE
  5
14
330
5
100
AcDbSymbolTableRecord
100
AcDbLinetypeTableRecord
  2
ByBlock
 70
     0
  3

 72
    65
 73
     0
 40
0.0
  0
LTYPE
  5
15
330
5
100
AcDbSymbolTableRecord
100
AcDbLinetypeTableRecord
  2
ByLayer
 70
     0
  3

 72
    65
 73
     0
 40
0.0
  0
LTYPE
  5
16
330
5
100
AcDbSymbolTableRecord
100
AcDbLinetypeTableRecord
  2
Continuous
 70
     0
  3
Solid line
 72
    65
 73
     0
 40
0.0
  0
LTYPE
  5
6E
330
5
100
AcDbSymbolTableRecord
100
AcDbLinetypeTableRecord
  2
HIDDEN
 70
     0
  3
Hidden __ __ __ __ __ __ __ __ __ __ __ __ __ __
 72
    65
 73
     2
 40
1.905
 49
1.27
 74
     0
 49
-0.635
 74
     0
  0
LTYPE
  5
6F
330
5
100
AcDbSymbolTableRecord
100
AcDbLinetypeTableRecord
  2
PHANTOM
 70
     0
  3
Phantom ______  __  __  ______  __  __  ______
 72
    65
 73
     6
 40
12.7
 49
6.35
 74
     0
 49
-1.27
 74
     0
 49
1.27
 74
     0
 49
-1.27
 74
     0
 49
1.27
 74
     0
 49
-1.27
 74
     0
  0
LTYPE
  5
70
330
5
100
AcDbSymbolTableRecord
100
AcDbLinetypeTableRecord
  2
CENTER
 70
     0
  3
Center ____ _ ____ _ ____ _ ____ _ ____ _ ____
 72
    65
 73
     4
 40
10.16
 49
6.35
 74
     0
 49
-1.27
 74
     0
 49
1.27
 74
     0
 49
-1.27
 74
     0
  0
LTYPE
  5
71
330
5
100
AcDbSymbolTableRecord
100
AcDbLinetypeTableRecord
  2
CENTERX2
 70
     0
  3
Center (2x) ________  __  ________  __  _____
 72
    65
 73
     4
 40
20.32
 49
12.7
 74
     0
 49
-2.54
 74
     0
 49
2.54
 74
     0
 49
-2.54
 74
     0
  0
LTYPE
  5
72
330
5
100
AcDbSymbolTableRecord
100
AcDbLinetypeTableRecord
  2
DOT2
 70
     0
  3
Dot (.5x) ........................................
 72
    65
 73
     2
 40
0.635
 49
0.0
 74
     0
 49
-0.635
 74
     0
  0
ENDTAB
  0
TABLE
  2
LAYER
  5
2
330
0
100
AcDbSymbolTable
 70
    17
  0
LAYER
  5
10
330
2
100
AcDbSymbolTableRecord
100
AcDbLayerTableRecord
  2
0
 70
     0
 62
     7
  6
Continuous
370
    -3
390
F
  0
LAYER
  5
73
330
2
100
AcDbSymbolTableRecord
100
AcDbLayerTableRecord
  2
FORMAT
 70
     0
 62
     7
  6
Continuous
370
    -3
390
F
  0
LAYER
  5
74
330
2
100
AcDbSymbolTableRecord
100
AcDbLayerTableRecord
  2
YARDIMCI_GEOMETRI
 70
     0
 62
    -6
  6
Continuous
290
     0
370
    -3
390
F
  0
LAYER
  5
75
330
2
100
AcDbSymbolTableRecord
100
AcDbLayerTableRecord
  2
SAYFA_CERCEVESI
 70
     0
 62
     7
  6
Continuous
370
    25
390
F
  0
LAYER
  5
76
330
2
100
AcDbSymbolTableRecord
100
AcDbLayerTableRecord
  2
ANTET
 70
     0
 62
     7
  6
Continuous
370
    -3
390
F
  0
LAYER
  5
77
330
2
100
AcDbSymbolTableRecord
100
AcDbLayerTableRecord
  2
OLCU
 70
     0
 62
   150
  6
Continuous
370
    -3
390
F
  0
LAYER
  5
78
330
2
100
AcDbSymbolTableRecord
100
AcDbLayerTableRecord
  2
METIN
 70
     0
 62
    96
  6
Continuous
370
    -3
390
F
  0
LAYER
  5
79
330
2
100
AcDbSymbolTableRecord
100
AcDbLayerTableRecord
  2
BALON
 70
     0
 62
     5
  6
Continuous
370
    -3
390
F
  0
LAYER
  5
7A
330
2
100
AcDbSymbolTableRecord
100
AcDbLayerTableRecord
  2
VURGU
 70
     0
 62
     7
  6
Continuous
370
    -3
390
F
  0
LAYER
  5
7B
330
2
100
AcDbSymbolTableRecord
100
AcDbLayerTableRecord
  2
SILIK
 70
     0
 62
     7
  6
Continuous
370
    -3
390
F
  0
LAYER
  5
7C
330
2
100
AcDbSymbolTableRecord
100
AcDbLayerTableRecord
  2
MODEL
 70
     0
 62
     7
  6
Continuous
370
    -3
390
F
  0
LAYER
  5
7D
330
2
100
AcDbSymbolTableRecord
100
AcDbLayerTableRecord
  2
DETAYLANDıRMA
 70
     0
 62
   190
  6
Continuous
370
    -3
390
F
  0
LAYER
  5
7E
330
2
100
AcDbSymbolTableRecord
100
AcDbLayerTableRecord
  2
TOLERANS
 70
     0
 62
   230
  6
Continuous
370
    -3
390
F
  0
LAYER
  5
7F
330
2
100
AcDbSymbolTableRecord
100
AcDbLayerTableRecord
  2
MERKEZ_CIZGILERI
 70
     0
 62
    30
  6
Continuous
370
    -3
390
F
  0
LAYER
  5
80
330
2
100
AcDbSymbolTableRecord
100
AcDbLayerTableRecord
  2
KESIT-DETAY_CIZGILERI
 70
     0
 62
     7
  6
Continuous
370
    -3
390
F
  0
LAYER
  5
81
330
2
100
AcDbSymbolTableRecord
100
AcDbLayerTableRecord
  2
\U+041E\U+0421\U+0415\U+0412\U+042B\U+0415
 70
     0
 62
     7
  6
Continuous
370
    -3
390
F
  0
LAYER
  5
82
330
2
100
AcDbSymbolTableRecord
100
AcDbLayerTableRecord
  2
\U+0412\U+041E\U+0414\U+042F\U+041D\U+042B\U+0415_\U+0417\U+041D\U+0410\U+041A\U+0418
 70
     0
 62
    11
  6
Continuous
370
    -3
390
F
  0
ENDTAB
  0
TABLE
  2
STYLE
  5
3
330
0
100
AcDbSymbolTable
 70
     1
  0
STYLE
  5
11
330
3
100
AcDbSymbolTableRecord
100
AcDbTextStyleTableRecord
  2
Standard
 70
     0
 40
0.0
 41
1.0
 50
0.0
 71
     0
 42
3.5
  3
txt
  4

  0
ENDTAB
  0
TABLE
  2
VIEW
  5
6
330
0
100
AcDbSymbolTable
 70
     0
  0
ENDTAB
  0
TABLE
  2
UCS
  5
7
330
0
100
AcDbSymbolTable
 70
     0
  0
ENDTAB
  0
TABLE
  2
APPID
  5
9
330
0
100
AcDbSymbolTable
 70
     1
  0
APPID
  5
12
330
9
100
AcDbSymbolTableRecord
100
AcDbRegAppTableRecord
  2
ACAD
 70
     0
  0
ENDTAB
  0
TABLE
  2
DIMSTYLE
  5
A
330
0
100
AcDbSymbolTable
 70
     1
100
AcDbDimStyleTable
  0
DIMSTYLE
105
27
330
A
100
AcDbSymbolTableRecord
100
AcDbDimStyleTableRecord
  2
ISO-25
 70
     0
 41
2.5
 42
0.625
 43
3.75
 44
1.25
 73
     0
 74
     0
 77
     1
 78
     8
140
2.5
141
2.5
143
0.0393700787
147
0.625
171
     3
172
     1
178
     0
271
     2
272
     2
274
     3
278
    44
283
     0
284
     8
340
11
  0
ENDTAB
  0
TABLE
  2
BLOCK_RECORD
  5
1
330
0
100
AcDbSymbolTable
 70
     2
  0
BLOCK_RECORD
  5
1F
330
1
100
AcDbSymbolTableRecord
100
AcDbBlockTableRecord
  2
*Model_Space
340
22
  0
BLOCK_RECORD
  5
1B
330
1
100
AcDbSymbolTableRecord
100
AcDbBlockTableRecord
  2
*Paper_Space
340
1E
  0
BLOCK_RECORD
  5
23
330
1
100
AcDbSymbolTableRecord
100
AcDbBlockTableRecord
  2
*Paper_Space0
340
26
  0
BLOCK_RECORD
  5
88
330
1
100
AcDbSymbolTableRecord
100
AcDbBlockTableRecord
  2
SW_CENTERMARKSYMBOL_0
340
0
102
{BLKREFS
331
93
102
}
  0
ENDTAB
  0
ENDSEC
  0
SECTION
  2
BLOCKS
  0
BLOCK
  5
20
330
1F
100
AcDbEntity
  8
0
100
AcDbBlockBegin
  2
*Model_Space
 70
     0
 10
0.0
 20
0.0
 30
0.0
  3
*Model_Space
  1

  0
ENDBLK
  5
21
330
1F
100
AcDbEntity
  8
0
100
AcDbBlockEnd
  0
BLOCK
  5
1C
330
1B
100
AcDbEntity
 67
     1
  8
0
100
AcDbBlockBegin
  2
*Paper_Space
 70
     0
 10
0.0
 20
0.0
 30
0.0
  3
*Paper_Space
  1

  0
ENDBLK
  5
1D
330
1B
100
AcDbEntity
 67
     1
  8
0
100
AcDbBlockEnd
  0
BLOCK
  5
24
330
23
100
AcDbEntity
  8
0
100
AcDbBlockBegin
  2
*Paper_Space0
 70
     0
 10
0.0
 20
0.0
 30
0.0
  3
*Paper_Space0
  1

  0
ENDBLK
  5
25
330
23
100
AcDbEntity
  8
0
100
AcDbBlockEnd
  0
BLOCK
  5
89
330
88
100
AcDbEntity
  8
0
100
AcDbBlockBegin
  2
SW_CENTERMARKSYMBOL_0
 70
     0
 10
0.0
 20
0.0
 30
0.0
  3
SW_CENTERMARKSYMBOL_0
  1

  0
LINE
  5
8B
330
88
100
AcDbEntity
  8
FORMAT
 62
     0
100
AcDbLine
 10
0.0
 20
0.0
 30
0.0
 11
0.0
 21
2.5
 31
0.0
  0
LINE
  5
8C
330
88
100
AcDbEntity
  8
FORMAT
 62
     0
100
AcDbLine
 10
0.0
 20
0.0
 30
0.0
 11
-2.5
 21
0.0
 31
0.0
  0
LINE
  5
8D
330
88
100
AcDbEntity
  8
FORMAT
 62
     0
100
AcDbLine
 10
0.0
 20
0.0
 30
0.0
 11
0.0
 21
-2.5
 31
0.0
  0
LINE
  5
8E
330
88
100
AcDbEntity
  8
FORMAT
 62
     0
100
AcDbLine
 10
0.0
 20
0.0
 30
0.0
 11
2.5
 21
0.0
 31
0.0
  0
LINE
  5
8F
330
88
100
AcDbEntity
  8
FORMAT
 62
     0
100
AcDbLine
 10
0.0
 20
5.0
 30
0.0
 11
0.0
 21
92.5
 31
0.0
  0
LINE
  5
90
330
88
100
AcDbEntity
  8
FORMAT
 62
     0
100
AcDbLine
 10
-5.0
 20
0.0
 30
0.0
 11
-92.5
 21
0.0
 31
0.0
  0
LINE
  5
91
330
88
100
AcDbEntity
  8
FORMAT
 62
     0
100
AcDbLine
 10
0.0
 20
-5.0
 30
0.0
 11
0.0
 21
-92.5
 31
0.0
  0
LINE
  5
92
330
88
100
AcDbEntity
  8
FORMAT
 62
     0
100
AcDbLine
 10
5.0
 20
0.0
 30
0.0
 11
92.5
 21
0.0
 31
0.0
  0
ENDBLK
  5
8A
330
88
100
AcDbEntity
  8
0
100
AcDbBlockEnd
  0
ENDSEC
  0
SECTION
  2
ENTITIES
  0
CIRCLE
  5
83
330
1F
100
AcDbEntity
  8
0
  6
Continuous
 62
     7
370
    25
100
AcDbCircle
 10
139.395004093
 20
107.5851680021
 30
0.0
 40
90.0
  0
CIRCLE
  5
84
330
1F
100
AcDbEntity
  8
0
  6
Continuous
 62
     7
370
    25
100
AcDbCircle
 10
139.395004093
 20
107.5851680021
 30
0.0
 40
73.6
  0
CIRCLE
  5
85
330
1F
100
AcDbEntity
  8
0
  6
Continuous
 62
     7
370
    25
100
AcDbCircle
 10
139.395004093
 20
107.5851680021
 30
0.0
 40
73.27800859475371
  0
CIRCLE
  5
86
330
1F
100
AcDbEntity
  8
0
  6
Continuous
 62
     7
370
    25
100
AcDbCircle
 10
139.395004093
 20
107.5851680021
 30
0.0
 40
57.62199140524631
  0
CIRCLE
  5
87
330
1F
100
AcDbEntity
  8
0
  6
Continuous
 62
     7
370
    25
100
AcDbCircle
 10
139.395004093
 20
107.5851680021
 30
0.0
 40
57.30000000000003
  0
INSERT
  5
93
330
1F
100
AcDbEntity
  8
FORMAT
 62
     7
100
AcDbBlockReference
  2
SW_CENTERMARKSYMBOL_0
 10
139.395004093
 20
107.5851680021
 30
0.0
  0
ARC
  5
94
330
1F
100
AcDbEntity
  8
0
  6
Continuous
 62
     7
370
    25
100
AcDbCircle
 10
-234.3612083681
 20
195.5851680021
 30
0.0
 40
2.0
100
AcDbArc
 50
69.3255752391
 51
90.0
  0
ARC
  5
95
330
1F
100
AcDbEntity
  8
0
  6
Continuous
 62
     7
370
    25
100
AcDbCircle
 10
-234.3612083681
 20
19.5851680021
 30
0.0
 40
2.000000000000009
100
AcDbArc
 50
270.0
 51
290.6744247609
  0
LINE
  5
96
330
1F
100
AcDbEntity
  8
0
  6
Continuous
 62
     7
370
    25
100
AcDbLine
 10
-234.361208421
 20
197.5851715784
 30
0.0
 11
-338.9963986397
 21
197.5851715784
 31
0.0
  0
LINE
  5
97
330
1F
100
AcDbEntity
  8
0
  6
Continuous
 62
     7
370
    25
100
AcDbLine
 10
-338.9963986397
 20
17.5851644258
 30
0.0
 11
-234.361208421
 21
17.5851644258
 31
0.0
  0
LINE
  5
98
330
1F
100
AcDbEntity
  8
0
  6
Continuous
 62
     7
370
    25
100
AcDbLine
 10
-233.6550945461
 20
17.7139626126
 30
0.0
 11
-181.3377155036
 21
37.4563695173
 31
0.0
  0
LINE
  5
99
330
1F
100
AcDbEntity
  8
0
  6
Continuous
 62
     7
370
    25
100
AcDbLine
 10
-181.3377155036
 20
177.7139664869
 30
0.0
 11
-233.6550945461
 21
197.4563733916
 31
0.0
  0
ARC
  5
9A
330
1F
100
AcDbEntity
  8
0
  6
Continuous
 62
     7
370
    25
100
AcDbCircle
 10
-180.6316011374
 20
179.5851680021
 30
0.0
 40
2.000000000000012
100
AcDbArc
 50
249.3255752391
 51
270.0
  0
ARC
  5
9B
330
1F
100
AcDbEntity
  8
0
  6
Continuous
 62
     7
370
    25
100
AcDbCircle
 10
-180.6316011374
 20
35.5851680021
 30
0.0
 40
2.0
100
AcDbArc
 50
90.0
 51
110.6744247609
  0
LINE
  5
9C
330
1F
100
AcDbEntity
  8
0
  6
Continuous
 62
     7
370
    25
100
AcDbLine
 10
-88.9964060903
 20
177.5851683001
 30
0.0
 11
-180.631599766
 21
177.5851683001
 31
0.0
  0
LINE
  5
9D
330
1F
100
AcDbEntity
  8
0
  6
Continuous
 62
     7
370
    25
100
AcDbLine
 10
-180.631599766
 20
37.5851677041
 30
0.0
 11
-88.9964060903
 21
37.5851677041
 31
0.0
  0
LINE
  5
9E
330
1F
100
AcDbEntity
  8
0
  6
Continuous
 62
     7
370
    25
100
AcDbLine
 10
-338.9963986397
 20
197.5851715784
 30
0.0
 11
-338.9963986397
 21
17.5851644258
 31
0.0
  0
LINE
  5
9F
330
1F
100
AcDbEntity
  8
0
  6
Continuous
 62
     7
370
    25
100
AcDbLine
 10
-88.9964060903
 20
177.5851683001
 30
0.0
 11
-88.9964060903
 21
37.5851677041
 31
0.0
  0
LINE
  5
A0
330
1F
100
AcDbEntity
  8
0
  6
Continuous
 62
     1
370
    25
100
AcDbLine
 10
-233.6550945461
 20
197.4563733916
 30
0.0
 11
-233.6550945461
 21
17.7139626126
 31
0.0
  0
LINE
  5
A1
330
1F
100
AcDbEntity
  8
0
  6
Continuous
 62
     1
370
    25
100
AcDbLine
 10
-234.361208421
 20
197.5851715784
 30
0.0
 11
-234.361208421
 21
17.5851644258
 31
0.0
  0
LINE
  5
A2
330
1F
100
AcDbEntity
  8
0
  6
Continuous
 62
     1
370
    25
100
AcDbLine
 10
-181.3377155036
 20
177.7139664869
 30
0.0
 11
-181.3377155036
 21
37.4563695173
 31
0.0
  0
LINE
  5
A3
330
1F
100
AcDbEntity
  8
0
  6
Continuous
 62
     1
370
    25
100
AcDbLine
 10
-180.631599766
 20
177.5851683001
 30
0.0
 11
-180.631599766
 21
37.5851677041
 31
0.0
  0
ARC
  5
A4
330
1F
100
AcDbEntity
  8
0
  6
Continuous
 62
     7
370
    25
100
AcDbCircle
 10
496.5068211523
 20
19.5851680021
 30
0.0
 40
2.000000000000009
100
AcDbArc
 50
249.3255752391
 51
270.0
  0
ARC
  5
A5
330
1F
100
AcDbEntity
  8
0
  6
Continuous
 62
     7
370
    25
100
AcDbCircle
 10
496.5068211523
 20
195.5851680021
 30
0.0
 40
2.0
100
AcDbArc
 50
90.0
 51
110.6744247609
  0
LINE
  5
A6
330
1F
100
AcDbEntity
  8
0
  6
Continuous
 62
     7
370
    25
100
AcDbLine
 10
496.5068212053
 20
17.5851644258
 30
0.0
 11
601.1420114239
 21
17.5851644258
 31
0.0
  0
LINE
  5
A7
330
1F
100
AcDbEntity
  8
0
  6
Continuous
 62
     7
370
    25
100
AcDbLine
 10
601.1420114239
 20
197.5851715784
 30
0.0
 11
496.5068212053
 21
197.5851715784
 31
0.0
  0
LINE
  5
A8
330
1F
100
AcDbEntity
  8
0
  6
Continuous
 62
     7
370
    25
100
AcDbLine
 10
495.8007073303
 20
197.4563733916
 30
0.0
 11
443.4833282878
 21
177.7139664869
 31
0.0
  0
LINE
  5
A9
330
1F
100
AcDbEntity
  8
0
  6
Continuous
 62
     7
370
    25
100
AcDbLine
 10
443.4833282878
 20
37.4563695173
 30
0.0
 11
495.8007073303
 21
17.7139626126
 31
0.0
  0
ARC
  5
AA
330
1F
100
AcDbEntity
  8
0
  6
Continuous
 62
     7
370
    25
100
AcDbCircle
 10
442.7772139217
 20
35.5851680021
 30
0.0
 40
2.0
100
AcDbArc
 50
69.3255752391
 51
90.0
  0
ARC
  5
AB
330
1F
100
AcDbEntity
  8
0
  6
Continuous
 62
     7
370
    25
100
AcDbCircle
 10
442.7772139217
 20
179.5851680021
 30
0.0
 40
2.000000000000012
100
AcDbArc
 50
270.0
 51
290.6744247609
  0
LINE
  5
AC
330
1F
100
AcDbEntity
  8
0
  6
Continuous
 62
     7
370
    25
100
AcDbLine
 10
351.1420188745
 20
37.5851677041
 30
0.0
 11
442.7772125503
 21
37.5851677041
 31
0.0
  0
LINE
  5
AD
330
1F
100
AcDbEntity
  8
0
  6
Continuous
 62
     7
370
    25
100
AcDbLine
 10
442.7772125503
 20
177.5851683001
 30
0.0
 11
351.1420188745
 21
177.5851683001
 31
0.0
  0
LINE
  5
AE
330
1F
100
AcDbEntity
  8
0
  6
Continuous
 62
     7
370
    25
100
AcDbLine
 10
601.1420114239
 20
107.5851680021
 30
0.0
 11
601.1420114239
 21
197.5851715784
 31
0.0
  0
LINE
  5
AF
330
1F
100
AcDbEntity
  8
0
  6
Continuous
 62
     7
370
    25
100
AcDbLine
 10
601.1420114239
 20
17.5851644258
 30
0.0
 11
601.1420114239
 21
107.5851680021
 31
0.0
  0
LINE
  5
B0
330
1F
100
AcDbEntity
  8
0
  6
Continuous
 62
     7
370
    25
100
AcDbLine
 10
351.1420188745
 20
107.5851680021
 30
0.0
 11
351.1420188745
 21
177.5851683001
 31
0.0
  0
LINE
  5
B1
330
1F
100
AcDbEntity
  8
0
  6
Continuous
 62
     7
370
    25
100
AcDbLine
 10
351.1420188745
 20
37.5851677041
 30
0.0
 11
351.1420188745
 21
107.5851680021
 31
0.0
  0
LINE
  5
B2
330
1F
100
AcDbEntity
  8
0
  6
Continuous
 62
     1
370
    25
100
AcDbLine
 10
495.8007073303
 20
107.5851680021
 30
0.0
 11
495.8007073303
 21
197.4563733916
 31
0.0
  0
LINE
  5
B3
330
1F
100
AcDbEntity
  8
0
  6
Continuous
 62
     1
370
    25
100
AcDbLine
 10
495.8007073303
 20
17.7139626126
 30
0.0
 11
495.8007073303
 21
107.5851680021
 31
0.0
  0
LINE
  5
B4
330
1F
100
AcDbEntity
  8
0
  6
Continuous
 62
     1
370
    25
100
AcDbLine
 10
496.5068212053
 20
107.5851680021
 30
0.0
 11
496.5068212053
 21
197.5851715784
 31
0.0
  0
LINE
  5
B5
330
1F
100
AcDbEntity
  8
0
  6
Continuous
 62
     1
370
    25
100
AcDbLine
 10
496.5068212053
 20
17.5851644258
 30
0.0
 11
496.5068212053
 21
107.5851680021
 31
0.0
  0
LINE
  5
B6
330
1F
100
AcDbEntity
  8
0
  6
Continuous
 62
     1
370
    25
100
AcDbLine
 10
443.4833282878
 20
107.5851680021
 30
0.0
 11
443.4833282878
 21
177.7139664869
 31
0.0
  0
LINE
  5
B7
330
1F
100
AcDbEntity
  8
0
  6
Continuous
 62
     1
370
    25
100
AcDbLine
 10
443.4833282878
 20
37.4563695173
 30
0.0
 11
443.4833282878
 21
107.5851680021
 31
0.0
  0
LINE
  5
B8
330
1F
100
AcDbEntity
  8
0
  6
Continuous
 62
     1
370
    25
100
AcDbLine
 10
442.7772125503
 20
107.5851680021
 30
0.0
 11
442.7772125503
 21
177.5851683001
 31
0.0
  0
LINE
  5
B9
330
1F
100
AcDbEntity
  8
0
  6
Continuous
 62
     1
370
    25
100
AcDbLine
 10
442.7772125503
 20
37.5851677041
 30
0.0
 11
442.7772125503
 21
107.5851680021
 31
0.0
  0
ARC
  5
BA
330
1F
100
AcDbEntity
  8
0
  6
Continuous
 62
     7
370
    25
100
AcDbCircle
 10
227.395004093
 20
489.9307412493
 30
0.0
 40
2.000000000000012
100
AcDbArc
 50
339.3255752391
 51
0.0
  0
ARC
  5
BB
330
1F
100
AcDbEntity
  8
0
  6
Continuous
 62
     7
370
    25
100
AcDbCircle
 10
51.395004093
 20
489.9307412493
 30
0.0
 40
2.000000000000006
100
AcDbArc
 50
180.0
 51
200.6744247609
  0
LINE
  5
BC
330
1F
100
AcDbEntity
  8
0
  6
Continuous
 62
     7
370
    25
100
AcDbLine
 10
229.3950076693
 20
489.9307413023
 30
0.0
 11
229.3950076693
 21
594.565931521
 31
0.0
  0
LINE
  5
BD
330
1F
100
AcDbEntity
  8
0
  6
Continuous
 62
     7
370
    25
100
AcDbLine
 10
49.3950005168
 20
594.565931521
 30
0.0
 11
49.3950005168
 21
489.9307413023
 31
0.0
  0
LINE
  5
BE
330
1F
100
AcDbEntity
  8
0
  6
Continuous
 62
     7
370
    25
100
AcDbLine
 10
49.5237987035
 20
489.2246274274
 30
0.0
 11
69.2662056082
 21
436.9072483849
 31
0.0
  0
LINE
  5
BF
330
1F
100
AcDbEntity
  8
0
  6
Continuous
 62
     7
370
    25
100
AcDbLine
 10
209.5238025778
 20
436.9072483849
 30
0.0
 11
229.2662094825
 21
489.2246274274
 31
0.0
  0
ARC
  5
C0
330
1F
100
AcDbEntity
  8
0
  6
Continuous
 62
     7
370
    25
100
AcDbCircle
 10
211.395004093
 20
436.2011340187
 30
0.0
 40
2.0
100
AcDbArc
 50
159.3255752391
 51
180.0
  0
ARC
  5
C1
330
1F
100
AcDbEntity
  8
0
  6
Continuous
 62
     7
370
    25
100
AcDbCircle
 10
67.395004093
 20
436.2011340187
 30
0.0
 40
2.0
100
AcDbArc
 50
0.0
 51
20.6744247609
  0
LINE
  5
C2
330
1F
100
AcDbEntity
  8
0
  6
Continuous
 62
     7
370
    25
100
AcDbLine
 10
209.3950043911
 20
344.5659389715
 30
0.0
 11
209.3950043911
 21
436.2011326473
 31
0.0
  0
LINE
  5
C3
330
1F
100
AcDbEntity
  8
0
  6
Continuous
 62
     7
370
    25
100
AcDbLine
 10
69.395003795
 20
436.2011326473
 30
0.0
 11
69.395003795
 21
344.5659389715
 31
0.0
  0
LINE
  5
C4
330
1F
100
AcDbEntity
  8
0
  6
Continuous
 62
     7
370
    25
100
AcDbLine
 10
229.3950076693
 20
594.565931521
 30
0.0
 11
49.3950005168
 21
594.565931521
 31
0.0
  0
LINE
  5
C5
330
1F
100
AcDbEntity
  8
0
  6
Continuous
 62
     7
370
    25
100
AcDbLine
 10
209.3950043911
 20
344.5659389715
 30
0.0
 11
69.395003795
 21
344.5659389715
 31
0.0
  0
LINE
  5
C6
330
1F
100
AcDbEntity
  8
0
  6
Continuous
 62
     1
370
    25
100
AcDbLine
 10
229.2662094825
 20
489.2246274274
 30
0.0
 11
49.5237987035
 21
489.2246274274
 31
0.0
  0
LINE
  5
C7
330
1F
100
AcDbEntity
  8
0
  6
Continuous
 62
     1
370
    25
100
AcDbLine
 10
229.3950076693
 20
489.9307413023
 30
0.0
 11
49.3950005168
 21
489.9307413023
 31
0.0
  0
LINE
  5
C8
330
1F
100
AcDbEntity
  8
0
  6
Continuous
 62
     1
370
    25
100
AcDbLine
 10
209.5238025778
 20
436.9072483849
 30
0.0
 11
69.2662056082
 21
436.9072483849
 31
0.0
  0
LINE
  5
C9
330
1F
100
AcDbEntity
  8
0
  6
Continuous
 62
     1
370
    25
100
AcDbLine
 10
209.3950043911
 20
436.2011326473
 30
0.0
 11
69.395003795
 21
436.2011326473
 31
0.0
  0
ARC
  5
CA
330
1F
100
AcDbEntity
  8
0
  6
Continuous
 62
     7
370
    25
100
AcDbCircle
 10
51.395004093
 20
-228.6424727884
 30
0.0
 40
2.000000000000006
100
AcDbArc
 50
159.3255752391
 51
180.0
  0
ARC
  5
CB
330
1F
100
AcDbEntity
  8
0
  6
Continuous
 62
     7
370
    25
100
AcDbCircle
 10
227.395004093
 20
-228.6424727884
 30
0.0
 40
2.000000000000012
100
AcDbArc
 50
0.0
 51
20.6744247609
  0
LINE
  5
CC
330
1F
100
AcDbEntity
  8
0
  6
Continuous
 62
     7
370
    25
100
AcDbLine
 10
49.3950005168
 20
-228.6424728413
 30
0.0
 11
49.3950005168
 21
-333.27766306
 31
0.0
  0
LINE
  5
CD
330
1F
100
AcDbEntity
  8
0
  6
Continuous
 62
     7
370
    25
100
AcDbLine
 10
229.3950076693
 20
-333.27766306
 30
0.0
 11
229.3950076693
 21
-228.6424728413
 31
0.0
  0
LINE
  5
CE
330
1F
100
AcDbEntity
  8
0
  6
Continuous
 62
     7
370
    25
100
AcDbLine
 10
229.2662094825
 20
-227.9363589664
 30
0.0
 11
209.5238025778
 21
-175.6189799239
 31
0.0
  0
LINE
  5
CF
330
1F
100
AcDbEntity
  8
0
  6
Continuous
 62
     7
370
    25
100
AcDbLine
 10
69.2662056082
 20
-175.6189799239
 30
0.0
 11
49.5237987035
 21
-227.9363589664
 31
0.0
  0
ARC
  5
D0
330
1F
100
AcDbEntity
  8
0
  6
Continuous
 62
     7
370
    25
100
AcDbCircle
 10
67.395004093
 20
-174.9128655577
 30
0.0
 40
2.0
100
AcDbArc
 50
339.3255752391
 51
0.0
  0
ARC
  5
D1
330
1F
100
AcDbEntity
  8
0
  6
Continuous
 62
     7
370
    25
100
AcDbCircle
 10
211.395004093
 20
-174.9128655577
 30
0.0
 40
2.0
100
AcDbArc
 50
180.0
 51
200.6744247609
  0
LINE
  5
D2
330
1F
100
AcDbEntity
  8
0
  6
Continuous
 62
     7
370
    25
100
AcDbLine
 10
69.395003795
 20
-83.2776705106
 30
0.0
 11
69.395003795
 21
-174.9128641863
 31
0.0
  0
LINE
  5
D3
330
1F
100
AcDbEntity
  8
0
  6
Continuous
 62
     7
370
    25
100
AcDbLine
 10
209.3950043911
 20
-174.9128641863
 30
0.0
 11
209.3950043911
 21
-83.2776705106
 31
0.0
  0
LINE
  5
D4
330
1F
100
AcDbEntity
  8
0
  6
Continuous
 62
     7
370
    25
100
AcDbLine
 10
49.3950005168
 20
-333.27766306
 30
0.0
 11
229.3950076693
 21
-333.27766306
 31
0.0
  0
LINE
  5
D5
330
1F
100
AcDbEntity
  8
0
  6
Continuous
 62
     7
370
    25
100
AcDbLine
 10
69.395003795
 20
-83.2776705106
 30
0.0
 11
209.3950043911
 21
-83.2776705106
 31
0.0
  0
LINE
  5
D6
330
1F
100
AcDbEntity
  8
0
  6
Continuous
 62
     1
370
    25
100
AcDbLine
 10
49.5237987035
 20
-227.9363589664
 30
0.0
 11
229.2662094825
 21
-227.9363589664
 31
0.0
  0
LINE
  5
D7
330
1F
100
AcDbEntity
  8
0
  6
Continuous
 62
     1
370
    25
100
AcDbLine
 10
49.3950005168
 20
-228.6424728413
 30
0.0
 11
229.3950076693
 21
-228.6424728413
 31
0.0
  0
LINE
  5
D8
330
1F
100
AcDbEntity
  8
0
  6
Continuous
 62
     1
370
    25
100
AcDbLine
 10
69.2662056082
 20
-175.6189799239
 30
0.0
 11
209.5238025778
 21
-175.6189799239
 31
0.0
  0
LINE
  5
D9
330
1F
100
AcDbEntity
  8
0
  6
Continuous
 62
     1
370
    25
100
AcDbLine
 10
69.395003795
 20
-174.9128641863
 30
0.0
 11
209.3950043911
 21
-174.9128641863
 31
0.0
  0
LINE
  5
DA
330
1F
100
AcDbEntity
  8
0
  6
Continuous
 62
     7
370
    25
100
AcDbLine
 10
516.7583538524
 20
-114.5175137054
 30
0.0
 11
442.7701012981
 21
-71.8050046671
 31
0.0
  0
LINE
  5
DB
330
1F
100
AcDbEntity
  8
0
  6
Continuous
 62
     7
370
    25
100
AcDbLine
 10
352.7774127877
 20
-227.6938013791
 30
0.0
 11
426.7656653421
 21
-270.4063104174
 31
0.0
  0
SPLINE
  5
DC
330
1F
100
AcDbEntity
  8
0
  6
Continuous
 62
     7
370
    25
100
AcDbSpline
210
0.0
220
0.0
230
1.0
 70
     8
 71
     3
 72
    11
 73
     7
 74
     0
 42
0.000000001
 43
0.00000001
 40
0.0
 40
0.0
 40
0.0
 40
0.0
 40
0.0804503822985242
 40
0.509519405671431
 40
0.937391551490557
 40
1.0
 40
1.0
 40
1.0
 40
1.0
 10
524.9106804655496
 20
-121.272025119561
 30
0.0
 10
524.8017711137364
 20
-121.1397567358483
 30
0.0
 10
524.1120114553918
 20
-120.3020564498716
 30
0.0
 10
522.7028984230457
 20
-118.9404467121898
 30
0.0
 10
521.2949485738093
 20
-117.6396260386326
 30
0.0
 10
520.4770640570454
 20
-117.0460700668968
 30
0.0
 10
520.3726634319308
 20
-116.9703043405387
 30
0.0
  0
SPLINE
  5
DD
330
1F
100
AcDbEntity
  8
0
  6
Continuous
 62
     7
370
    25
100
AcDbSpline
210
0.0
220
0.0
230
1.0
 70
     8
 71
     3
 72
    10
 73
     6
 74
     0
 42
0.000000001
 43
0.00000001
 40
0.0
 40
0.0
 40
0.0
 40
0.0
 40
0.4296294386411258
 40
0.9593512009513698
 40
1.0
 40
1.0
 40
1.0
 40
1.0
 10
431.0041868702247
 20
-272.429013002172
 30
0.0
 10
431.6739731049825
 20
-272.6813053447307
 30
0.0
 10
433.1695880952588
 20
-273.2446674890707
 30
0.0
 10
434.7849065909498
 20
-273.717709145894
 30
0.0
 10
435.7420168541636
 20
-273.8978923739143
 30
0.0
 10
435.8102275673253
 20
-273.9107335552864
 30
0.0
  0
LINE
  5
DE
330
1F
100
AcDbEntity
  8
0
  6
Continuous
 62
     7
370
    25
100
AcDbLine
 10
440.9509695593
 20
-274.6835134933
 30
0.0
 11
484.82302424
 21
-278.041011163
 31
0.0
  0
LINE
  5
DF
330
1F
100
AcDbEntity
  8
0
  6
Continuous
 62
     7
370
    25
100
AcDbLine
 10
552.4032383366
 20
-160.9759656256
 30
0.0
 11
527.5561235598
 21
-124.6627343945
 31
0.0
  0
LINE
  5
E0
330
1F
100
AcDbEntity
  8
0
  6
Continuous
 62
     7
370
    25
100
AcDbLine
 10
609.5476016653
 20
-191.1769938608
 30
0.0
 11
549.2503550888
 21
-156.3681343396
 31
0.0
  0
LINE
  5
E1
330
1F
100
AcDbEntity
  8
0
  6
Continuous
 62
     7
370
    25
100
AcDbLine
 10
479.2560459006
 20
-277.6149745372
 30
0.0
 11
539.5532924771
 21
-312.4238340584
 31
0.0
  0
LWPOLYLINE
  5
E2
330
1F
100
AcDbEntity
  8
0
  6
Continuous
 62
     7
370
    25
100
AcDbPolyline
 90
      121
 70
   128
 43
0.0
 10
334.1341442073
 20
-186.487769515
 10
334.2213618419
 20
-182.5913198381
 10
334.4827724015
 20
-178.6048530232
 10
334.9176541211
 20
-174.5392972345
 10
335.5248268891
 20
-170.4057904811
 10
336.3026153683
 20
-166.215668826
 10
337.2488911427
 20
-161.9804158197
 10
338.3610621812
 20
-157.7116358827
 10
339.6360781056
 20
-153.4210352944
 10
341.0704512643
 20
-149.1203659212
 10
342.6602356585
 20
-144.8214236932
 10
344.4010901628
 20
-140.535989294
 10
346.2882311099
 20
-136.2758068638
 10
348.3164902426
 20
-132.0525535858
 10
350.4803094451
 20
-127.8778092673
 10
352.7737565486
 20
-123.7630107135
 10
355.1905464043
 20
-119.7194395623
 10
357.7240514202
 20
-115.7581796987
 10
360.3673331714
 20
-111.8900868399
 10
363.1131424
 20
-108.1257642004
 10
365.9539506251
 20
-104.4755259923
 10
368.881979119
 20
-100.949386782
 10
371.889196273
 20
-97.55699609
 10
374.9673597438
 20
-94.3076688133
 10
378.1080362106
 20
-91.2103008159
 10
381.3026132283
 20
-88.2733864206
 10
384.5423374233
 20
-85.5049720245
 10
387.8183283229
 20
-82.9126420312
 10
391.1216066728
 20
-80.5035146717
 10
394.4431171566
 20
-78.2841802183
 10
397.7737570429
 20
-76.2607270332
 10
401.1043969292
 20
-74.4387052588
 10
404.425907413
 20
-72.8231053365
 10
407.7291857629
 20
-71.4183486941
 10
411.0051766625
 20
-70.2283001048
 10
414.2449008575
 20
-69.2562085643
 10
417.4394778752
 20
-68.5047428443
 10
420.580154342
 20
-67.9759629779
 10
423.6583178129
 20
-67.6713183596
 10
426.6655349668
 20
-67.5916500305
 10
429.5935634607
 20
-67.7371595005
 10
432.4343716858
 20
-68.107470347
 10
435.1801809144
 20
-68.7015491318
 10
437.8234626656
 20
-69.5177738414
 10
440.3569676815
 20
-70.5539110766
 10
442.7737575372
 20
-71.8071160552
 10
445.0672046407
 20
-73.2739569466
 10
447.2310238432
 20
-74.9504087915
 10
449.2592829759
 20
-76.8318839211
 10
451.146423923
 20
-78.9132197918
 10
452.8872784273
 20
-81.1887063632
 10
454.4770628215
 20
-83.6521226
 10
455.9114359802
 20
-86.2966999751
 10
457.1864519046
 20
-89.1151985116
 10
458.2986229431
 20
-92.0998931001
 10
459.2448987175
 20
-95.2425993527
 10
460.0226871967
 20
-98.5347055446
 10
460.6298599647
 20
-101.9671855419
 10
461.0647416843
 20
-105.5306375846
 10
461.3261522439
 20
-109.2152861919
 10
461.4133698785
 20
-113.0110365312
 10
461.3261522439
 20
-116.9074862081
 10
461.0647416843
 20
-120.893953023
 10
460.6298599647
 20
-124.9595088117
 10
460.0226871967
 20
-129.0930155651
 10
459.2448987175
 20
-133.2831372202
 10
458.2986229431
 20
-137.5183902265
 10
457.1864519046
 20
-141.7871701635
 10
455.9114359802
 20
-146.0777707518
 10
454.4770628215
 20
-150.378440125
 10
452.8872784273
 20
-154.6773823531
 10
451.146423923
 20
-158.9628167522
 10
449.2592829759
 20
-163.2229991824
 10
447.2310238432
 20
-167.4462524604
 10
445.0672046407
 20
-171.6209967789
 10
442.7737575372
 20
-175.7357953327
 10
440.3569676815
 20
-179.779366484
 10
437.8234626656
 20
-183.7406263476
 10
435.1801809144
 20
-187.6087192063
 10
432.4343716858
 20
-191.3730418458
 10
429.5935634607
 20
-195.0232800539
 10
426.6655349668
 20
-198.5494192642
 10
423.6583178129
 20
-201.9418099562
 10
420.580154342
 20
-205.1911372329
 10
417.4394778752
 20
-208.2885052303
 10
414.2449008575
 20
-211.2254196256
 10
411.0051766625
 20
-213.9938340218
 10
407.7291857629
 20
-216.586164015
 10
404.425907413
 20
-218.9952913745
 10
401.1043969292
 20
-221.2146258279
 10
397.7737570429
 20
-223.238079013
 10
394.4431171566
 20
-225.0601007875
 10
391.1216066728
 20
-226.6757007097
 10
387.8183283229
 20
-228.0804573521
 10
384.5423374233
 20
-229.2705059414
 10
381.3026132283
 20
-230.2425974819
 10
378.1080362106
 20
-230.9940632019
 10
374.9673597438
 20
-231.5228430683
 10
371.889196273
 20
-231.8274876866
 10
368.881979119
 20
-231.9071560157
 10
365.9539506251
 20
-231.7616465458
 10
363.1131424
 20
-231.3913356992
 10
360.3673331714
 20
-230.7972569144
 10
357.7240514202
 20
-229.9810322048
 10
355.1905464043
 20
-228.9448949696
 10
352.7737565486
 20
-227.6916899911
 10
350.4803094451
 20
-226.2248490996
 10
348.3164902426
 20
-224.5483972547
 10
346.2882311099
 20
-222.6669221251
 10
344.4010901628
 20
-220.5855862545
 10
342.6602356585
 20
-218.3100996831
 10
341.0704512643
 20
-215.8466834463
 10
339.6360781056
 20
-213.2021060711
 10
338.3610621812
 20
-210.3836075347
 10
337.2488911427
 20
-207.3989129462
 10
336.3026153683
 20
-204.2562066935
 10
335.5248268891
 20
-200.9641005016
 10
334.9176541211
 20
-197.5316205044
 10
334.4827724015
 20
-193.9681684616
 10
334.2213618419
 20
-190.2835198544
 10
334.1341442073
 20
-186.487769515
  0
LWPOLYLINE
  5
E3
330
1F
100
AcDbEntity
  8
0
  6
Continuous
 62
     7
370
    25
100
AcDbPolyline
 90
      110
 70
   128
 43
0.0
 10
345.7306967927
 20
-179.7932222049
 10
345.817139979
 20
-176.2809891067
 10
346.07617451
 20
-172.6806223868
 10
346.5069416436
 20
-169.0040817645
 10
347.1080189236
 20
-165.2635748171
 10
347.8773991064
 20
-161.4715334037
 10
348.8125270394
 20
-157.6405535917
 10
349.9102996608
 20
-153.7833606761
 10
351.1670712682
 20
-149.9127665935
 10
352.5786693236
 20
-146.0416258171
 10
354.1403970876
 20
-142.1828049384
 10
355.8470704977
 20
-138.3491218334
 10
357.693020803
 20
-134.553306119
 10
359.6721130027
 20
-130.8079732988
 10
361.7777774568
 20
-127.1255608876
 10
364.0030177886
 20
-123.5182995138
 10
366.3404398601
 20
-119.9981779418
 10
368.7822807489
 20
-116.5768867994
 10
371.3204271865
 20
-113.2657927248
 10
373.9464498032
 20
-110.0758912204
 10
376.6516242015
 20
-107.0177823202
 10
379.4269638829
 20
-104.1016242048
 10
382.2632505414
 20
-101.3371005042
 10
385.1510617222
 20
-98.7333982467
 10
388.0808030904
 20
-96.2991709802
 10
391.0427439923
 20
-94.0424939074
 10
394.0270447852
 20
-91.9708724442
 10
397.02379174
 20
-90.0911855681
 10
400.0230299686
 20
-88.4096789772
 10
403.0147963513
 20
-86.9319339147
 10
405.9891524635
 20
-85.662860327
 10
408.9362181621
 20
-84.6066774761
 10
411.8462025365
 20
-83.7668960707
 10
414.7094407876
 20
-83.1462969771
 10
417.5164195813
 20
-82.7469470014
 10
420.2578152446
 20
-82.5701768391
 10
422.9245201069
 20
-82.6165658689
 10
425.5076793787
 20
-82.8859634486
 10
427.9987082738
 20
-83.3774759894
 10
430.3893302049
 20
-84.0894692402
 10
432.6716110277
 20
-85.0195758962
 10
434.8379616754
 20
-86.1647123286
 10
436.8811882076
 20
-87.5210679433
 10
438.7945049819
 20
-89.0841401633
 10
440.5715557265
 20
-90.8487374724
 10
442.2064346144
 20
-92.8089976686
 10
443.693717873
 20
-94.9584030759
 10
445.0284506135
 20
-97.2898246503
 10
446.2062179533
 20
-99.7955067769
 10
447.223089699
 20
-102.4671341857
 10
448.0756993709
 20
-105.295827396
 10
448.7612073253
 20
-108.2721921434
 10
449.2773429005
 20
-111.3863391554
 10
449.6223938809
 20
-114.6279214131
 10
449.7952012281
 20
-117.9861778777
 10
449.7952012281
 20
-121.4499471824
 10
449.6223938809
 20
-125.0077227633
 10
449.2773429005
 20
-128.647692403
 10
448.7612073253
 20
-132.3577568657
 10
448.0756993709
 20
-136.1255922502
 10
447.223089699
 20
-139.9386876342
 10
446.2062179533
 20
-143.7843701701
 10
445.0284506135
 20
-147.6498735226
 10
443.693717873
 20
-151.5223447169
 10
442.2064346144
 20
-155.3889308234
 10
440.5715557265
 20
-159.2367820051
 10
438.7945049819
 20
-163.0531184315
 10
436.8811882076
 20
-166.8252591777
 10
434.8379616754
 20
-170.5406739326
 10
432.6716110277
 20
-174.1870255829
 10
430.3893302049
 20
-177.7521975879
 10
427.9987082738
 20
-181.2243441689
 10
425.5076793787
 20
-184.5919374529
 10
422.9245201069
 20
-187.8437872446
 10
420.2578152446
 20
-190.9690881718
 10
417.5164195813
 20
-193.9574660703
 10
414.7094407876
 20
-196.798984826
 10
411.8462025365
 20
-199.4842102506
 10
408.9362181621
 20
-202.0042252886
 10
405.9891524635
 20
-204.3506520667
 10
403.0147963513
 20
-206.515696949
 10
400.0230299686
 20
-208.4921718267
 10
397.02379174
 20
-210.2735119859
 10
394.0270447852
 20
-211.8537954962
 10
391.0427439923
 20
-213.2277743868
 10
388.0808030904
 20
-214.3908814872
 10
385.1510617222
 20
-215.3392616036
 10
382.2632505414
 20
-216.0697551652
 10
379.4269638829
 20
-216.5799383363
 10
376.6516242015
 20
-216.8681192108
 10
373.9464498032
 20
-216.9333381889
 10
371.3204271865
 20
-216.7753778611
 10
368.7822807489
 20
-216.3947652863
 10
366.3404398601
 20
-215.7927636239
 10
364.0030177886
 20
-214.9713721315
 10
361.7777774568
 20
-213.9333185577
 10
359.6721130027
 20
-212.6820545767
 10
357.693020803
 20
-211.2217329725
 10
355.8470704977
 20
-209.5572061148
 10
354.1403970876
 20
-207.6940061863
 10
352.5786693236
 20
-205.6383178031
 10
351.1670712682
 20
-203.3969734503
 10
349.9102996608
 20
-200.9774169794
 10
348.8125270394
 20
-198.3876853537
 10
347.8773991064
 20
-195.6363812716
 10
347.1080189236
 20
-192.7326473092
 10
346.5069416436
 20
-189.6861294173
 10
346.07617451
 20
-186.506941941
 10
345.817139979
 20
-183.2056501245
 10
345.7306967927
 20
-179.7932222049
  0
ARC
  5
E4
330
1F
100
AcDbEntity
  8
0
  6
Continuous
 62
     7
370
    25
100
AcDbCircle
 10
501.6718547622
 20
-140.6415307191
 30
0.0
 40
30.16731210645394
100
AcDbArc
 50
52.041553861
 51
59.9937647835
  0
LWPOLYLINE
  5
E5
330
1F
100
AcDbEntity
  8
0
  6
Continuous
 62
     7
370
    25
100
AcDbPolyline
 90
        3
 70
   128
 43
0.0
 10
430.8671463923
 20
-272.3771200231
 10
429.1787989587
 20
-271.6574040079
 10
426.7656653421
 20
-270.4063104174
  0
ARC
  5
E6
330
1F
100
AcDbEntity
  8
0
  6
Continuous
 62
     7
370
    25
100
AcDbCircle
 10
496.2729372643
 20
-146.1913701939
 30
0.0
 40
37.96990734680751
100
AcDbArc
 50
24.0560019002
 51
40.80457326
  0
ARC
  5
E7
330
1F
100
AcDbEntity
  8
0
  6
Continuous
 62
     7
370
    25
100
AcDbCircle
 10
443.9246991837
 20
-237.5338500336
 30
0.0
 40
37.26599185604451
100
AcDbArc
 50
257.7110832305
 51
275.4463676909
  0
ARC
  5
E8
330
1F
100
AcDbEntity
  8
0
  6
Continuous
 62
     7
370
    25
100
AcDbCircle
 10
526.7562393485
 20
-178.4279895229
 30
0.0
 40
31.02163269737579
100
AcDbArc
 50
25.8832304427
 51
34.234128397
  0
ARC
  5
E9
330
1F
100
AcDbEntity
  8
0
  6
Continuous
 62
     7
370
    25
100
AcDbCircle
 10
487.0955822354
 20
-247.8754411771
 30
0.0
 40
30.25105175715198
100
AcDbArc
 50
265.6916947368
 51
272.4613750589
  0
LWPOLYLINE
  5
EA
330
1F
100
AcDbEntity
  8
0
  6
Continuous
 62
     7
370
    25
100
AcDbPolyline
 90
       55
 70
   128
 43
0.0
 10
609.5476016653
 20
-191.1769938608
 10
610.0652439903
 20
-191.4847926393
 10
612.0453398119
 20
-192.8411605814
 10
613.8937346343
 20
-194.4046221502
 10
615.6039352089
 20
-196.1696877155
 10
617.1699303413
 20
-198.1301604614
 10
618.5862251361
 20
-200.2791531205
 10
619.8478462653
 20
-202.6091107877
 10
620.9503551387
 20
-205.1118580704
 10
621.889882149
 20
-207.7786006127
 10
622.6631240369
 20
-210.5999737646
 10
623.2673728673
 20
-213.5660623567
 10
623.7005054927
 20
-216.6664478484
 10
623.9609888216
 20
-219.8902478717
 10
624.047921965
 20
-223.2261299241
 10
623.9609888216
 20
-226.6623828475
 10
623.7005054927
 20
-230.1869305207
 10
623.2673728673
 20
-233.7874002971
 10
622.6631240369
 20
-237.451139739
 10
621.889882149
 20
-241.1652789715
 10
620.9503551387
 20
-244.9167763102
 10
619.8478462653
 20
-248.6924532432
 10
618.5862251361
 20
-252.4790476607
 10
617.1699303413
 20
-256.2632594833
 10
615.6039352089
 20
-260.0317917234
 10
613.8937346343
 20
-263.7714128424
 10
612.0453398119
 20
-267.4689856475
 10
610.0652439903
 20
-271.1115235626
 10
607.9604013997
 20
-274.6862271289
 10
605.7382035436
 20
-278.1805463605
 10
603.4064581257
 20
-281.5822020351
 10
600.9733574397
 20
-284.8792465285
 10
598.4474414907
 20
-288.0601063969
 10
595.8375887758
 20
-291.1135968247
 10
593.1529636004
 20
-294.0290007079
 10
590.4029963218
 20
-296.7960739751
 10
587.5973464709
 20
-299.4051033799
 10
584.7458685076
 20
-301.8469141017
 10
581.8585788941
 20
-304.112937424
 10
578.9456195448
 20
-306.1952074992
 10
576.0172219367
 20
-308.0864185696
 10
573.0836722056
 20
-309.7799207821
 10
570.1552745975
 20
-311.2697656222
 10
567.2423152483
 20
-312.5507268233
 10
564.3550256347
 20
-313.6182971313
 10
561.5035476715
 20
-314.4687327885
 10
558.6978978206
 20
-315.0990377504
 10
555.947930542
 20
-315.5070091202
 10
553.2633053666
 20
-315.6912074877
 10
550.6534526517
 20
-315.6509888653
 10
548.1275367027
 20
-315.3864894751
 10
545.6944360166
 20
-314.8986432383
 10
543.3626905987
 20
-314.1891635186
 10
541.1404927426
 20
-313.2605393194
 10
539.5532924771
 20
-312.4238340584
  0
LWPOLYLINE
  5
EB
330
1F
100
AcDbEntity
  8
0
  6
Continuous
 62
     1
370
    25
100
AcDbPolyline
 90
       59
 70
   128
 43
0.0
 10
520.2274609534
 20
-116.8559006327
 10
521.2192763976
 20
-117.6629178298
 10
523.2475355303
 20
-119.5443929594
 10
525.1346764774
 20
-121.6257288301
 10
526.8755309817
 20
-123.9012154015
 10
528.4653153759
 20
-126.3646316383
 10
529.8996885346
 20
-129.0092090134
 10
531.174704459
 20
-131.8277075499
 10
532.2868754975
 20
-134.8124021384
 10
533.2331512719
 20
-137.9551083911
 10
534.0109397511
 20
-141.2472145829
 10
534.6181125191
 20
-144.6796945802
 10
535.0529942387
 20
-148.2431466229
 10
535.3144047982
 20
-151.9277952302
 10
535.4016224329
 20
-155.7235455696
 10
535.3144047982
 20
-159.6199952465
 10
535.0529942387
 20
-163.6064620614
 10
534.6181125191
 20
-167.67201785
 10
534.0109397511
 20
-171.8055246035
 10
533.2331512719
 20
-175.9956462585
 10
532.2868754975
 20
-180.2308992648
 10
531.174704459
 20
-184.4996792019
 10
529.8996885346
 20
-188.7902797901
 10
528.4653153759
 20
-193.0909491633
 10
526.8755309817
 20
-197.3898913914
 10
525.1346764774
 20
-201.6753257905
 10
523.2475355303
 20
-205.9355082207
 10
521.2192763976
 20
-210.1587614987
 10
519.055457195
 20
-214.3335058173
 10
516.7620100915
 20
-218.448304371
 10
514.3452202359
 20
-222.4918755223
 10
511.81171522
 20
-226.4531353859
 10
509.1684334688
 20
-230.3212282446
 10
506.4226242402
 20
-234.0855508841
 10
503.5818160151
 20
-237.7357890922
 10
500.6537875212
 20
-241.2619283025
 10
497.6465703672
 20
-244.6543189945
 10
494.5684068964
 20
-247.9036462713
 10
491.4277304296
 20
-251.0010142687
 10
488.2331534118
 20
-253.9379286639
 10
484.9934292168
 20
-256.7063430601
 10
481.7174383172
 20
-259.2986730533
 10
478.4141599674
 20
-261.7078004128
 10
475.0926494836
 20
-263.9271348663
 10
471.7620095973
 20
-265.9505880513
 10
468.431369711
 20
-267.7726098258
 10
465.1098592271
 20
-269.3882097481
 10
461.8065808773
 20
-270.7929663905
 10
458.5305899777
 20
-271.9830149797
 10
455.2908657827
 20
-272.9551065202
 10
452.096288765
 20
-273.7065722402
 10
448.9556122982
 20
-274.2353521067
 10
445.8774488273
 20
-274.539996725
 10
442.8702316734
 20
-274.619665054
 10
439.9422031795
 20
-274.4741555841
 10
437.1013949544
 20
-274.1038447375
 10
434.3555857258
 20
-273.5097659527
 10
431.7123039746
 20
-272.6935412431
 10
430.8671463923
 20
-272.3771200231
  0
LINE
  5
EC
330
1F
100
AcDbEntity
  8
0
  6
Continuous
 62
     1
370
    25
100
AcDbLine
 10
434.1605129887
 20
-171.7109443093
 30
0.0
 11
434.988313972
 21
-170.2769958176
 31
0.0
  0
LWPOLYLINE
  5
ED
330
1F
100
AcDbEntity
  8
0
  6
Continuous
 62
     1
370
    25
100
AcDbPolyline
 90
       47
 70
   128
 43
0.0
 10
530.9450620865
 20
-130.7137210108
 10
531.5889763697
 20
-132.2027191026
 10
532.6995563647
 20
-135.1831412613
 10
533.64448344
 20
-138.321348489
 10
534.4211550276
 20
-141.6087457898
 10
535.0274585169
 20
-145.0363131152
 10
535.4617185705
 20
-148.594664675
 10
535.7227550768
 20
-152.2740409579
 10
535.8098462708
 20
-156.0643600595
 10
535.7227550768
 20
-159.9552325134
 10
535.4617185705
 20
-163.9359951312
 10
535.0274585169
 20
-167.9957326767
 10
534.4211550276
 20
-172.1233231104
 10
533.64448344
 20
-176.3074463389
 10
532.6995563647
 20
-180.5366431453
 10
531.5889763697
 20
-184.7993136728
 10
530.3157832965
 20
-189.0837759756
 10
528.8834700651
 20
-193.3782857927
 10
527.2959563323
 20
-197.67107761
 10
525.5575937604
 20
-201.9503798702
 10
523.6731554799
 20
-206.2044636416
 10
521.6477992115
 20
-210.4216730329
 10
519.4870725339
 20
-214.590446487
 10
517.1969076163
 20
-218.6993532823
 10
514.7835790705
 20
-222.7371361148
 10
512.2536986836
 20
-226.6927323909
 10
509.614199612
 20
-230.5552894347
 10
506.8723205771
 20
-234.3142222821
 10
504.0355768887
 20
-237.9592364915
 10
501.111739372
 20
-241.480334226
 10
498.108826465
 20
-244.8678614013
 10
495.0350673398
 20
-248.1125411421
 10
491.8988860978
 20
-251.2054768231
 10
488.708879379
 20
-254.138195413
 10
485.4737913373
 20
-256.9026436697
 10
482.2024892746
 20
-259.491263044
 10
478.9039386158
 20
-261.8969432886
 10
475.5871808477
 20
-264.1131021148
 10
472.2613075065
 20
-266.133657623
 10
468.9354341653
 20
-267.9530737384
 10
465.6186763973
 20
-269.5663619192
 10
462.3201257384
 20
-270.9691072007
 10
459.0488236757
 20
-272.157452793
 10
455.8137356341
 20
-273.1281576842
 10
452.6237289153
 20
-273.8785424548
 10
449.4875476732
 20
-274.4065645616
 10
447.4617620337
 20
-274.6316038121
  0
LWPOLYLINE
  5
EE
330
1F
100
AcDbEntity
  8
0
  6
Continuous
 62
     1
370
    25
100
AcDbPolyline
 90
       42
 70
   128
 43
0.0
 10
554.6659551192
 20
-164.8858530294
 10
555.740562779
 20
-167.3318565159
 10
556.68181781
 20
-170.0035057269
 10
557.4564874224
 20
-172.8300668906
 10
558.0618478759
 20
-175.8016134293
 10
558.4957707547
 20
-178.90770779
 10
558.7567387724
 20
-182.1374360473
 10
558.8438299665
 20
-185.4794569512
 10
558.7567387724
 20
-188.9220312075
 10
558.4957707547
 20
-192.4530667244
 10
558.0618478759
 20
-196.0601577771
 10
557.4564874224
 20
-199.7306386181
 10
556.68181781
 20
-203.4516142781
 10
555.740562779
 20
-207.2100134159
 10
554.6360255884
 20
-210.9926377475
 10
553.3720837484
 20
-214.7862008292
 10
551.9531837515
 20
-218.5773736846
 10
550.3843041942
 20
-222.3528395547
 10
548.670958411
 20
-226.0993410469
 10
546.8191628647
 20
-229.8037196757
 10
544.835423975
 20
-233.452956927
 10
542.7267065085
 20
-237.0342381338
 10
540.5004230423
 20
-240.5349859352
 10
538.1643865483
 20
-243.9429028587
 10
535.7268077597
 20
-247.2460154258
 10
533.1962451206
 20
-250.4327243387
 10
530.5815902992
 20
-253.4918371786
 10
527.8920247228
 20
-256.4126056638
 10
525.1369985053
 20
-259.1847712764
 10
522.3261856655
 20
-261.7985941548
 10
519.4694617367
 20
-264.2448994805
 10
516.5768596446
 20
-266.5150907816
 10
513.6585404016
 20
-268.6011972693
 10
510.724754747
 20
-270.495883815
 10
507.7858072558
 20
-272.1925020881
 10
504.8520216012
 20
-273.6850923591
 10
501.9337023582
 20
-274.9684055492
 10
499.0411002661
 20
-276.0379415355
 10
496.1843763373
 20
-276.8899394516
 10
493.3735634974
 20
-277.5214120001
 10
490.6185372799
 20
-277.9301319512
 10
488.3947404778
 20
-278.0985833082
  0
LWPOLYLINE
  5
EF
330
1F
100
AcDbEntity
  8
0
  6
Continuous
 62
     1
370
    25
100
AcDbPolyline
 90
       48
 70
   128
 43
0.0
 10
551.2094486089
 20
-159.2312816089
 10
552.3740634978
 20
-160.7243027387
 10
553.7903582926
 20
-162.8732953978
 10
555.0519794218
 20
-165.203253065
 10
556.1544882953
 20
-167.7060003477
 10
557.0940153056
 20
-170.37274289
 10
557.8672571934
 20
-173.1941160419
 10
558.4715060238
 20
-176.1602046341
 10
558.9046386492
 20
-179.2605901257
 10
559.1651219781
 20
-182.4843901491
 10
559.2520551215
 20
-185.8202722015
 10
559.1651219781
 20
-189.2565251248
 10
558.9046386492
 20
-192.7810727981
 10
558.4715060238
 20
-196.3815425745
 10
557.8672571934
 20
-200.0452820163
 10
557.0940153056
 20
-203.7594212488
 10
556.1544882953
 20
-207.5109185876
 10
555.0519794218
 20
-211.2865955205
 10
553.7903582926
 20
-215.073189938
 10
552.3740634978
 20
-218.8574017606
 10
550.8080683654
 20
-222.6259340007
 10
549.0978677909
 20
-226.3655551198
 10
547.2494729684
 20
-230.0631279248
 10
545.2693771469
 20
-233.7056658399
 10
543.1645345563
 20
-237.2803694063
 10
540.9423367002
 20
-240.7746886378
 10
538.6105912823
 20
-244.1763443124
 10
536.1774905962
 20
-247.4733888059
 10
533.6515746472
 20
-250.6542486743
 10
531.0417219323
 20
-253.7077391021
 10
528.3570967569
 20
-256.6231429852
 10
525.6071294783
 20
-259.3902162525
 10
522.8014796274
 20
-261.9992456573
 10
519.9500016642
 20
-264.4410563791
 10
517.0627120506
 20
-266.7070797014
 10
514.1497527014
 20
-268.7893497765
 10
511.2213550933
 20
-270.6805608469
 10
508.2878053622
 20
-272.3740630594
 10
505.359407754
 20
-273.8639078996
 10
502.4464484048
 20
-275.1448691007
 10
499.5591587913
 20
-276.2124394087
 10
496.707680828
 20
-277.0628750658
 10
493.9020309771
 20
-277.6931800277
 10
491.1520636985
 20
-278.1011513976
 10
488.4674385231
 20
-278.2853497651
 10
485.8575858082
 20
-278.2451311426
 10
483.3316698592
 20
-277.9806317524
 10
482.7151747351
 20
-277.8796985022
  0
ENDSEC
  0
SECTION
  2
OBJECTS
  0
DICTIONARY
  5
C
330
0
100
AcDbDictionary
281
     1
  3
ACAD_GROUP
350
D
  3
ACAD_LAYOUT
350
1A
  3
ACAD_MLINESTYLE
350
17
  3
ACAD_PLOTSETTINGS
350
19
  3
ACAD_PLOTSTYLENAME
350
E
  3
ACAD_SCALELIST
350
47
  0
DICTIONARY
  5
D
102
{ACAD_REACTORS
330
C
102
}
330
C
100
AcDbDictionary
281
     1
  0
DICTIONARY
  5
1A
102
{ACAD_REACTORS
330
C
102
}
330
C
100
AcDbDictionary
281
     1
  3
Layout1
350
1E
  3
Layout2
350
26
  3
Model
350
22
  0
DICTIONARY
  5
17
102
{ACAD_REACTORS
330
C
102
}
330
C
100
AcDbDictionary
281
     1
  3
Standard
350
18
  0
DICTIONARY
  5
19
102
{ACAD_REACTORS
330
C
102
}
330
C
100
AcDbDictionary
281
     1
  0
ACDBDICTIONARYWDFLT
  5
E
102
{ACAD_REACTORS
330
C
102
}
330
C
100
AcDbDictionary
281
     1
  3
Normal
350
F
100
AcDbDictionaryWithDefault
340
F
  0
DICTIONARY
  5
47
102
{ACAD_REACTORS
330
C
102
}
330
C
100
AcDbDictionary
281
     1
  3
A0
350
48
  3
A1
350
49
  3
A2
350
4A
  3
A3
350
4B
  3
A4
350
4C
  3
A5
350
4D
  3
A6
350
4E
  3
A7
350
4F
  3
A8
350
50
  3
A9
350
51
  3
B0
350
52
  3
B1
350
53
  3
B2
350
54
  3
B3
350
55
  3
B4
350
56
  3
B5
350
57
  3
B6
350
58
  3
B7
350
59
  3
B8
350
5A
  3
B9
350
5B
  3
C0
350
5C
  3
C1
350
5D
  3
C2
350
5E
  3
C3
350
5F
  3
C4
350
60
  3
C5
350
61
  3
C6
350
62
  3
C7
350
63
  3
C8
350
64
  3
C9
350
65
  3
D0
350
66
  3
D1
350
67
  3
D2
350
68
  0
LAYOUT
  5
1E
102
{ACAD_REACTORS
330
1A
102
}
330
1A
100
AcDbPlotSettings
  1

  2
none_device
  4

  6

 40
0.0
 41
0.0
 42
0.0
 43
0.0
 44
0.0
 45
0.0
 46
0.0
 47
0.0
 48
0.0
 49
0.0
140
0.0
141
0.0
142
1.0
143
1.0
 70
   688
 72
     1
 73
     0
 74
     5
  7

 75
    16
147
1.0
148
0.0
149
0.0
100
AcDbLayout
  1
Layout1
 70
     1
 71
     1
 10
0.0
 20
0.0
 11
420.0
 21
297.0
 12
0.0
 22
0.0
 32
0.0
 14
1.0000000000E+20
 24
1.0000000000E+20
 34
1.0000000000E+20
 15
-1.0000000000E+20
 25
-1.0000000000E+20
 35
-1.0000000000E+20
146
0.0
 13
0.0
 23
0.0
 33
0.0
 16
1.0
 26
0.0
 36
0.0
 17
0.0
 27
1.0
 37
0.0
 76
     0
330
1B
  0
LAYOUT
  5
26
102
{ACAD_REACTORS
330
1A
102
}
330
1A
100
AcDbPlotSettings
  1

  2
none_device
  4

  6

 40
0.0
 41
0.0
 42
0.0
 43
0.0
 44
0.0
 45
0.0
 46
0.0
 47
0.0
 48
0.0
 49
0.0
140
0.0
141
0.0
142
1.0
143
1.0
 70
   688
 72
     1
 73
     0
 74
     5
  7

 75
    16
147
1.0
148
0.0
149
0.0
100
AcDbLayout
  1
Layout2
 70
     1
 71
     2
 10
0.0
 20
0.0
 11
0.0
 21
0.0
 12
0.0
 22
0.0
 32
0.0
 14
0.0
 24
0.0
 34
0.0
 15
0.0
 25
0.0
 35
0.0
146
0.0
 13
0.0
 23
0.0
 33
0.0
 16
1.0
 26
0.0
 36
0.0
 17
0.0
 27
1.0
 37
0.0
 76
     0
330
23
  0
LAYOUT
  5
22
102
{ACAD_REACTORS
330
1A
102
}
330
1A
100
AcDbPlotSettings
  1

  2
none_device
  4
Letter_(8.50_x_11.00_Inches)
  6

 40
6.35
 41
6.35
 42
6.35000508
 43
6.35000508
 44
215.9
 45
279.4
 46
0.0
 47
0.0
 48
0.0
 49
0.0
140
0.0
141
0.0
142
1.0
143
1.0
 70
  1712
 72
     1
 73
     0
 74
     0
  7

 75
     0
147
1.0
148
0.0
149
0.0
100
AcDbLayout
  1
Model
 70
     1
 71
     0
 10
0.0
 20
0.0
 11
279.4
 21
215.9
 12
0.0
 22
0.0
 32
0.0
 14
0.0
 24
0.0
 34
0.0
 15
279.4
 25
215.9
 35
0.0
146
0.0
 13
0.0
 23
0.0
 33
0.0
 16
1.0
 26
0.0
 36
0.0
 17
0.0
 27
1.0
 37
0.0
 76
     0
330
1F
331
29
  0
MLINESTYLE
  5
18
102
{ACAD_REACTORS
330
17
102
}
330
17
100
AcDbMlineStyle
  2
Standard
 70
     0
  3

 62
   256
 51
90.0
 52
90.0
 71
     2
 49
0.5
 62
   256
  6
BYLAYER
 49
-0.5
 62
   256
  6
BYLAYER
  0
ACDBPLACEHOLDER
  5
F
102
{ACAD_REACTORS
330
E
102
}
330
E
  0
SCALE
  5
48
102
{ACAD_REACTORS
330
47
102
}
330
47
100
AcDbScale
 70
     0
300
1:1
140
1.0
141
1.0
290
     1
  0
SCALE
  5
49
102
{ACAD_REACTORS
330
47
102
}
330
47
100
AcDbScale
 70
     0
300
1:2
140
1.0
141
2.0
290
     0
  0
SCALE
  5
4A
102
{ACAD_REACTORS
330
47
102
}
330
47
100
AcDbScale
 70
     0
300
1:4
140
1.0
141
4.0
290
     0
  0
SCALE
  5
4B
102
{ACAD_REACTORS
330
47
102
}
330
47
100
AcDbScale
 70
     0
300
1:5
140
1.0
141
5.0
290
     0
  0
SCALE
  5
4C
102
{ACAD_REACTORS
330
47
102
}
330
47
100
AcDbScale
 70
     0
300
1:8
140
1.0
141
8.0
290
     0
  0
SCALE
  5
4D
102
{ACAD_REACTORS
330
47
102
}
330
47
100
AcDbScale
 70
     0
300
1:10
140
1.0
141
10.0
290
     0
  0
SCALE
  5
4E
102
{ACAD_REACTORS
330
47
102
}
330
47
100
AcDbScale
 70
     0
300
1:16
140
1.0
141
16.0
290
     0
  0
SCALE
  5
4F
102
{ACAD_REACTORS
330
47
102
}
330
47
100
AcDbScale
 70
     0
300
1:20
140
1.0
141
20.0
290
     0
  0
SCALE
  5
50
102
{ACAD_REACTORS
330
47
102
}
330
47
100
AcDbScale
 70
     0
300
1:30
140
1.0
141
30.0
290
     0
  0
SCALE
  5
51
102
{ACAD_REACTORS
330
47
102
}
330
47
100
AcDbScale
 70
     0
300
1:40
140
1.0
141
40.0
290
     0
  0
SCALE
  5
52
102
{ACAD_REACTORS
330
47
102
}
330
47
100
AcDbScale
 70
     0
300
1:50
140
1.0
141
50.0
290
     0
  0
SCALE
  5
53
102
{ACAD_REACTORS
330
47
102
}
330
47
100
AcDbScale
 70
     0
300
1:100
140
1.0
141
100.0
290
     0
  0
SCALE
  5
54
102
{ACAD_REACTORS
330
47
102
}
330
47
100
AcDbScale
 70
     0
300
2:1
140
2.0
141
1.0
290
     0
  0
SCALE
  5
55
102
{ACAD_REACTORS
330
47
102
}
330
47
100
AcDbScale
 70
     0
300
4:1
140
4.0
141
1.0
290
     0
  0
SCALE
  5
56
102
{ACAD_REACTORS
330
47
102
}
330
47
100
AcDbScale
 70
     0
300
8:1
140
8.0
141
1.0
290
     0
  0
SCALE
  5
57
102
{ACAD_REACTORS
330
47
102
}
330
47
100
AcDbScale
 70
     0
300
10:1
140
10.0
141
1.0
290
     0
  0
SCALE
  5
58
102
{ACAD_REACTORS
330
47
102
}
330
47
100
AcDbScale
 70
     0
300
100:1
140
100.0
141
1.0
290
     0
  0
SCALE
  5
59
102
{ACAD_REACTORS
330
47
102
}
330
47
100
AcDbScale
 70
     0
300
1/128" = 1'-0"
140
0.0078125
141
12.0
290
     0
  0
SCALE
  5
5A
102
{ACAD_REACTORS
330
47
102
}
330
47
100
AcDbScale
 70
     0
300
1/64" = 1'-0"
140
0.015625
141
12.0
290
     0
  0
SCALE
  5
5B
102
{ACAD_REACTORS
330
47
102
}
330
47
100
AcDbScale
 70
     0
300
1/32" = 1'-0"
140
0.03125
141
12.0
290
     0
  0
SCALE
  5
5C
102
{ACAD_REACTORS
330
47
102
}
330
47
100
AcDbScale
 70
     0
300
1/16" = 1'-0"
140
0.0625
141
12.0
290
     0
  0
SCALE
  5
5D
102
{ACAD_REACTORS
330
47
102
}
330
47
100
AcDbScale
 70
     0
300
3/32" = 1'-0"
140
0.09375
141
12.0
290
     0
  0
SCALE
  5
5E
102
{ACAD_REACTORS
330
47
102
}
330
47
100
AcDbScale
 70
     0
300
1/8" = 1'-0"
140
0.125
141
12.0
290
     0
  0
SCALE
  5
5F
102
{ACAD_REACTORS
330
47
102
}
330
47
100
AcDbScale
 70
     0
300
3/16" = 1'-0"
140
0.1875
141
12.0
290
     0
  0
SCALE
  5
60
102
{ACAD_REACTORS
330
47
102
}
330
47
100
AcDbScale
 70
     0
300
1/4" = 1'-0"
140
0.25
141
12.0
290
     0
  0
SCALE
  5
61
102
{ACAD_REACTORS
330
47
102
}
330
47
100
AcDbScale
 70
     0
300
3/8" = 1'-0"
140
0.375
141
12.0
290
     0
  0
SCALE
  5
62
102
{ACAD_REACTORS
330
47
102
}
330
47
100
AcDbScale
 70
     0
300
1/2" = 1'-0"
140
0.5
141
12.0
290
     0
  0
SCALE
  5
63
102
{ACAD_REACTORS
330
47
102
}
330
47
100
AcDbScale
 70
     0
300
3/4" = 1'-0"
140
0.75
141
12.0
290
     0
  0
SCALE
  5
64
102
{ACAD_REACTORS
330
47
102
}
330
47
100
AcDbScale
 70
     0
300
1" = 1'-0"
140
1.0
141
12.0
290
     0
  0
SCALE
  5
65
102
{ACAD_REACTORS
330
47
102
}
330
47
100
AcDbScale
 70
     0
300
1-1/2" = 1'-0"
140
1.5
141
12.0
290
     0
  0
SCALE
  5
66
102
{ACAD_REACTORS
330
47
102
}
330
47
100
AcDbScale
 70
     0
300
3" = 1'-0"
140
3.0
141
12.0
290
     0
  0
SCALE
  5
67
102
{ACAD_REACTORS
330
47
102
}
330
47
100
AcDbScale
 70
     0
300
6" = 1'-0"
140
6.0
141
12.0
290
     0
  0
SCALE
  5
68
102
{ACAD_REACTORS
330
47
102
}
330
47
100
AcDbScale
 70
     0
300
1'-0" = 1'-0"
140
12.0
141
12.0
290
     0
  0
ENDSEC
  0
EOF
